ISO-10303-21;
HEADER;
FILE_DESCRIPTION (( 'STEP AP203' ),
    '1' );
FILE_NAME ('QM-AAQWP-15-550-750-M.STEP',
    '2021-01-05T02:42:29',
    ( '' ),
    ( '' ),
    'SwSTEP 2.0',
    'SolidWorks 2020',
    '' );
FILE_SCHEMA (( 'CONFIG_CONTROL_DESIGN' ));
ENDSEC;

DATA;
#1 = DIRECTION ( 'NONE',  ( 0.000000000000000000, 0.000000000000000000, 1.000000000000000000 ) ) ;
#2 = FACE_OUTER_BOUND ( 'NONE', #108, .T. ) ;
#3 = CYLINDRICAL_SURFACE ( 'NONE', #24, 7.499999999999998224 ) ;
#4 = CC_DESIGN_APPROVAL ( #233, ( #325 ) ) ;
#5 =( NAMED_UNIT ( * ) PLANE_ANGLE_UNIT ( ) SI_UNIT ( $, .RADIAN. ) );
#6 = CARTESIAN_POINT ( 'NONE',  ( -1.614212418857619014, 9.184850993605145972E-16, -7.499999999999998224 ) ) ;
#7 = EDGE_LOOP ( 'NONE', ( #197, #269 ) ) ;
#8 = CYLINDRICAL_SURFACE ( 'NONE', #308, 7.499999999999998224 ) ;
#9 = ORIENTED_EDGE ( 'NONE', *, *, #326, .F. ) ;
#10 = LOCAL_TIME ( 10, 42, 29.00000000000000000, #253 ) ;
#11 = ORIENTED_EDGE ( 'NONE', *, *, #307, .T. ) ;
#12 = DATE_TIME_ROLE ( 'classification_date' ) ;
#13 = EDGE_CURVE ( 'NONE', #246, #111, #171, .T. ) ;
#14 = VECTOR ( 'NONE', #142, 1000.000000000000000 ) ;
#15 = DATE_AND_TIME ( #18, #10 ) ;
#16 = APPROVAL_STATUS ( 'not_yet_approved' ) ;
#17 = CARTESIAN_POINT ( 'NONE',  ( 0.5000000000000008882, 0.000000000000000000, 7.500000000000000000 ) ) ;
#18 = CALENDAR_DATE ( 2021, 5, 1 ) ;
#19 = CARTESIAN_POINT ( 'NONE',  ( 3.000000000000000000, 0.000000000000000000, 0.000000000000000000 ) ) ;
#20 = VECTOR ( 'NONE', #93, 1000.000000000000000 ) ;
#21 = DIRECTION ( 'NONE',  ( -1.000000000000000000, -0.000000000000000000, -0.000000000000000000 ) ) ;
#22 = EDGE_CURVE ( 'NONE', #315, #90, #274, .T. ) ;
#23 = CARTESIAN_POINT ( 'NONE',  ( 3.000000000000000000, 1.555301434917138433E-15, -12.69999999999999929 ) ) ;
#24 = AXIS2_PLACEMENT_3D ( 'NONE', #237, #209, #119 ) ;
#25 = CARTESIAN_POINT ( 'NONE',  ( 0.5000000000000008882, 0.000000000000000000, 0.000000000000000000 ) ) ;
#26 = EDGE_LOOP ( 'NONE', ( #38, #164 ) ) ;
#27 = ORIENTED_EDGE ( 'NONE', *, *, #13, .F. ) ;
#28 = CARTESIAN_POINT ( 'NONE',  ( 0.5000000000000004441, 7.500000000000000000, 0.000000000000000000 ) ) ;
#29 = PRODUCT ( 'QM-AAQWP-15-550-750-M', 'QM-AAQWP-15-550-750-M', '', ( #270 ) ) ;
#30 = DIRECTION ( 'NONE',  ( -0.000000000000000000, 0.000000000000000000, 1.000000000000000000 ) ) ;
#31 = EDGE_LOOP ( 'NONE', ( #240, #68, #89, #81 ) ) ;
#32 = DIRECTION ( 'NONE',  ( -1.000000000000000000, -0.000000000000000000, -0.000000000000000000 ) ) ;
#33 = EDGE_CURVE ( 'NONE', #320, #223, #37, .T. ) ;
#34 = DIRECTION ( 'NONE',  ( -1.000000000000000000, -0.000000000000000000, -0.000000000000000000 ) ) ;
#35 = AXIS2_PLACEMENT_3D ( 'NONE', #302, #228, #256 ) ;
#36 = FACE_OUTER_BOUND ( 'NONE', #259, .T. ) ;
#37 = LINE ( 'NONE', #96, #70 ) ;
#38 = ORIENTED_EDGE ( 'NONE', *, *, #262, .F. ) ;
#39 = ORIENTED_EDGE ( 'NONE', *, *, #202, .F. ) ;
#40 = PERSON_AND_ORGANIZATION ( #169, #303 ) ;
#41 = DIRECTION ( 'NONE',  ( 0.000000000000000000, 0.000000000000000000, -1.000000000000000000 ) ) ;
#42 = APPROVAL_STATUS ( 'not_yet_approved' ) ;
#43 = EDGE_CURVE ( 'NONE', #85, #271, #200, .T. ) ;
#44 = CIRCLE ( 'NONE', #83, 7.500000000000000000 ) ;
#45 = CARTESIAN_POINT ( 'NONE',  ( -0.5000000000000004441, 7.500000000000000000, 0.000000000000000000 ) ) ;
#46 = PERSON_AND_ORGANIZATION ( #169, #303 ) ;
#47 = DIRECTION ( 'NONE',  ( 1.000000000000000000, 0.000000000000000000, 0.000000000000000000 ) ) ;
#48 = AXIS2_PLACEMENT_3D ( 'NONE', #232, #286, #310 ) ;
#49 = AXIS2_PLACEMENT_3D ( 'NONE', #112, #293, #188 ) ;
#50 = EDGE_CURVE ( 'NONE', #271, #90, #257, .T. ) ;
#51 = DIRECTION ( 'NONE',  ( 0.000000000000000000, 0.000000000000000000, 1.000000000000000000 ) ) ;
#52 = VECTOR ( 'NONE', #176, 1000.000000000000000 ) ;
#53 = ORIENTED_EDGE ( 'NONE', *, *, #212, .T. ) ;
#54 = DIRECTION ( 'NONE',  ( -1.000000000000000000, -0.000000000000000000, -0.000000000000000000 ) ) ;
#55 =( GEOMETRIC_REPRESENTATION_CONTEXT ( 3 ) GLOBAL_UNCERTAINTY_ASSIGNED_CONTEXT ( ( #213 ) ) GLOBAL_UNIT_ASSIGNED_CONTEXT ( ( #189, #5, #311 ) ) REPRESENTATION_CONTEXT ( 'NONE', 'WORKASPACE' ) );
#56 = MANIFOLD_SOLID_BREP ( 'Ðý×', #220 ) ;
#57 = DIRECTION ( 'NONE',  ( 1.000000000000000000, 0.000000000000000000, 0.000000000000000000 ) ) ;
#58 = CARTESIAN_POINT ( 'NONE',  ( -3.000000000000000000, 0.000000000000000000, 0.000000000000000000 ) ) ;
#59 = VERTEX_POINT ( 'NONE', #92 ) ;
#60 = DIRECTION ( 'NONE',  ( 0.000000000000000000, 0.000000000000000000, -1.000000000000000000 ) ) ;
#61 = ORIENTED_EDGE ( 'NONE', *, *, #285, .T. ) ;
#62 = DIRECTION ( 'NONE',  ( 0.000000000000000000, 0.000000000000000000, 1.000000000000000000 ) ) ;
#63 = ORIENTED_EDGE ( 'NONE', *, *, #174, .F. ) ;
#64 = PERSON_AND_ORGANIZATION ( #169, #303 ) ;
#65 = EDGE_LOOP ( 'NONE', ( #250, #187, #318, #143 ) ) ;
#66 = CC_DESIGN_PERSON_AND_ORGANIZATION_ASSIGNMENT ( #201, #172, ( #325 ) ) ;
#67 = CALENDAR_DATE ( 2021, 5, 1 ) ;
#68 = ORIENTED_EDGE ( 'NONE', *, *, #33, .T. ) ;
#69 = FACE_BOUND ( 'NONE', #26, .T. ) ;
#70 = VECTOR ( 'NONE', #298, 1000.000000000000000 ) ;
#71 = COORDINATED_UNIVERSAL_TIME_OFFSET ( 8, 0, .AHEAD. ) ;
#72 = DIRECTION ( 'NONE',  ( -1.000000000000000000, -0.000000000000000000, -0.000000000000000000 ) ) ;
#73 = PERSON_AND_ORGANIZATION_ROLE ( 'creator' ) ;
#74 = PLANE ( 'NONE',  #255 ) ;
#75 = CC_DESIGN_DATE_AND_TIME_ASSIGNMENT ( #324, #12, ( #104 ) ) ;
#76 = FACE_OUTER_BOUND ( 'NONE', #137, .T. ) ;
#77 = CIRCLE ( 'NONE', #183, 7.500000000000000000 ) ;
#78 = CC_DESIGN_PERSON_AND_ORGANIZATION_ASSIGNMENT ( #46, #204, ( #29 ) ) ;
#79 = CC_DESIGN_PERSON_AND_ORGANIZATION_ASSIGNMENT ( #301, #280, ( #104 ) ) ;
#80 = CIRCLE ( 'NONE', #230, 7.500000000000000000 ) ;
#81 = ORIENTED_EDGE ( 'NONE', *, *, #267, .F. ) ;
#82 = CYLINDRICAL_SURFACE ( 'NONE', #162, 12.69999999999999929 ) ;
#83 = AXIS2_PLACEMENT_3D ( 'NONE', #335, #306, #208 ) ;
#84 = ORIENTED_EDGE ( 'NONE', *, *, #330, .F. ) ;
#85 = VERTEX_POINT ( 'NONE', #23 ) ;
#86 = DIRECTION ( 'NONE',  ( 0.000000000000000000, 0.000000000000000000, 1.000000000000000000 ) ) ;
#87 = ADVANCED_FACE ( 'NONE', ( #127 ), #74, .F. ) ;
#88 = CARTESIAN_POINT ( 'NONE',  ( 3.000000000000000000, 0.000000000000000000, 0.000000000000000000 ) ) ;
#89 = ORIENTED_EDGE ( 'NONE', *, *, #123, .T. ) ;
#90 = VERTEX_POINT ( 'NONE', #181 ) ;
#91 = APPROVAL_ROLE ( '' ) ;
#92 = CARTESIAN_POINT ( 'NONE',  ( -3.000000000000000000, 0.000000000000000000, 7.500000000000000000 ) ) ;
#93 = DIRECTION ( 'NONE',  ( -1.000000000000000000, -0.000000000000000000, -0.000000000000000000 ) ) ;
#94 = CIRCLE ( 'NONE', #284, 7.499999999999998224 ) ;
#95 = LOCAL_TIME ( 10, 42, 29.00000000000000000, #299 ) ;
#96 = CARTESIAN_POINT ( 'NONE',  ( -1.614212418857619014, 9.184850993605145972E-16, -7.499999999999998224 ) ) ;
#97 = APPROVAL_DATE_TIME ( #122, #233 ) ;
#98 = CARTESIAN_POINT ( 'NONE',  ( 3.000000000000000000, 0.000000000000000000, 7.499999999999997335 ) ) ;
#99 = ADVANCED_FACE ( 'NONE', ( #2 ), #227, .T. ) ;
#100 = ADVANCED_FACE ( 'NONE', ( #69, #76 ), #333, .F. ) ;
#101 = CARTESIAN_POINT ( 'NONE',  ( -0.5000000000000004441, 0.000000000000000000, 7.499999999999998224 ) ) ;
#102 = CARTESIAN_POINT ( 'NONE',  ( 3.000000000000000000, 0.000000000000000000, 0.000000000000000000 ) ) ;
#103 = APPROVAL ( #42, 'UNSPECIFIED' ) ;
#104 = SECURITY_CLASSIFICATION ( '', '', #277 ) ;
#105 = DIRECTION ( 'NONE',  ( -1.000000000000000000, -0.000000000000000000, -0.000000000000000000 ) ) ;
#106 = APPROVAL ( #247, 'UNSPECIFIED' ) ;
#107 = DIRECTION ( 'NONE',  ( 0.000000000000000000, 0.000000000000000000, 1.000000000000000000 ) ) ;
#108 = EDGE_LOOP ( 'NONE', ( #53, #120, #327, #150 ) ) ;
#109 = DIRECTION ( 'NONE',  ( 1.000000000000000000, 0.000000000000000000, 0.000000000000000000 ) ) ;
#110 = VECTOR ( 'NONE', #32, 1000.000000000000000 ) ;
#111 = VERTEX_POINT ( 'NONE', #17 ) ;
#112 = CARTESIAN_POINT ( 'NONE',  ( -0.5000000000000004441, 0.000000000000000000, 0.000000000000000000 ) ) ;
#113 = CYLINDRICAL_SURFACE ( 'NONE', #157, 7.499999999999998224 ) ;
#114 = AXIS2_PLACEMENT_3D ( 'NONE', #148, #34, #322 ) ;
#115 = EDGE_LOOP ( 'NONE', ( #190, #39 ) ) ;
#116 = FACE_OUTER_BOUND ( 'NONE', #65, .T. ) ;
#117 = AXIS2_PLACEMENT_3D ( 'NONE', #192, #86, #57 ) ;
#118 = APPLICATION_CONTEXT ( 'configuration controlled 3d designs of mechanical parts and assemblies' ) ;
#119 = DIRECTION ( 'NONE',  ( 0.000000000000000000, 0.000000000000000000, 1.000000000000000000 ) ) ;
#120 = ORIENTED_EDGE ( 'NONE', *, *, #43, .T. ) ;
#121 = ORIENTED_EDGE ( 'NONE', *, *, #202, .T. ) ;
#122 = DATE_AND_TIME ( #328, #309 ) ;
#123 = EDGE_CURVE ( 'NONE', #223, #59, #77, .T. ) ;
#124 = ORIENTED_EDGE ( 'NONE', *, *, #262, .T. ) ;
#125 = APPROVAL_DATE_TIME ( #15, #106 ) ;
#126 = CC_DESIGN_SECURITY_CLASSIFICATION ( #104, ( #325 ) ) ;
#127 = FACE_OUTER_BOUND ( 'NONE', #215, .T. ) ;
#128 = APPLICATION_CONTEXT ( 'configuration controlled 3d designs of mechanical parts and assemblies' ) ;
#129 = APPROVAL_ROLE ( '' ) ;
#130 = CARTESIAN_POINT ( 'NONE',  ( -1.614212418857619014, 0.000000000000000000, 7.499999999999998224 ) ) ;
#131 = DIRECTION ( 'NONE',  ( 0.000000000000000000, 0.000000000000000000, 1.000000000000000000 ) ) ;
#132 = AXIS2_PLACEMENT_3D ( 'NONE', #25, #105, #254 ) ;
#133 = APPROVAL_PERSON_ORGANIZATION ( #64, #233, #91 ) ;
#134 = CARTESIAN_POINT ( 'NONE',  ( 3.000000000000000000, 9.184850993605144000E-16, -7.499999999999997335 ) ) ;
#135 = VERTEX_POINT ( 'NONE', #101 ) ;
#136 = FACE_OUTER_BOUND ( 'NONE', #323, .T. ) ;
#137 = EDGE_LOOP ( 'NONE', ( #11, #248 ) ) ;
#138 = CARTESIAN_POINT ( 'NONE',  ( -1.614212418857619014, 0.000000000000000000, 0.000000000000000000 ) ) ;
#139 = CIRCLE ( 'NONE', #132, 7.500000000000000000 ) ;
#140 = CARTESIAN_POINT ( 'NONE',  ( -3.000000000000000000, 1.555301434917138433E-15, -12.69999999999999929 ) ) ;
#141 = AXIS2_PLACEMENT_3D ( 'NONE', #28, #319, #30 ) ;
#142 = DIRECTION ( 'NONE',  ( -1.000000000000000000, -0.000000000000000000, -0.000000000000000000 ) ) ;
#143 = ORIENTED_EDGE ( 'NONE', *, *, #229, .T. ) ;
#144 = DIRECTION ( 'NONE',  ( -1.000000000000000000, -0.000000000000000000, -0.000000000000000000 ) ) ;
#145 = CARTESIAN_POINT ( 'NONE',  ( -1.614212418857619014, 0.000000000000000000, 7.499999999999998224 ) ) ;
#146 = CC_DESIGN_APPROVAL ( #106, ( #265 ) ) ;
#147 = PERSON_AND_ORGANIZATION_ROLE ( 'creator' ) ;
#148 = CARTESIAN_POINT ( 'NONE',  ( -3.000000000000000000, 0.000000000000000000, 0.000000000000000000 ) ) ;
#149 = DATE_AND_TIME ( #67, #95 ) ;
#150 = ORIENTED_EDGE ( 'NONE', *, *, #22, .F. ) ;
#151 = CARTESIAN_POINT ( 'NONE',  ( -3.000000000000000000, 9.184850993605147944E-16, -7.500000000000000000 ) ) ;
#152 = APPLICATION_PROTOCOL_DEFINITION ( 'international standard', 'config_control_design', 1994, #118 ) ;
#153 = DIRECTION ( 'NONE',  ( -1.000000000000000000, -0.000000000000000000, -0.000000000000000000 ) ) ;
#154 = COORDINATED_UNIVERSAL_TIME_OFFSET ( 8, 0, .AHEAD. ) ;
#155 = DIRECTION ( 'NONE',  ( 1.000000000000000000, 0.000000000000000000, 0.000000000000000000 ) ) ;
#156 = EDGE_CURVE ( 'NONE', #246, #168, #195, .T. ) ;
#157 = AXIS2_PLACEMENT_3D ( 'NONE', #241, #317, #273 ) ;
#158 = FACE_BOUND ( 'NONE', #7, .T. ) ;
#159 = APPROVAL_PERSON_ORGANIZATION ( #40, #106, #321 ) ;
#160 = DIRECTION ( 'NONE',  ( 0.000000000000000000, 0.000000000000000000, 1.000000000000000000 ) ) ;
#161 = PLANE ( 'NONE',  #141 ) ;
#162 = AXIS2_PLACEMENT_3D ( 'NONE', #177, #252, #131 ) ;
#163 = AXIS2_PLACEMENT_3D ( 'NONE', #88, #244, #268 ) ;
#164 = ORIENTED_EDGE ( 'NONE', *, *, #123, .F. ) ;
#165 = APPROVAL_PERSON_ORGANIZATION ( #194, #103, #129 ) ;
#166 = DESIGN_CONTEXT ( 'detailed design', #118, 'design' ) ;
#167 = FACE_OUTER_BOUND ( 'NONE', #115, .T. ) ;
#168 = VERTEX_POINT ( 'NONE', #134 ) ;
#169 = PERSON ( 'UNSPECIFIED', 'UNSPECIFIED', 'UNSPECIFIED', ('UNSPECIFIED'), ('UNSPECIFIED'), ('UNSPECIFIED') ) ;
#170 = FACE_OUTER_BOUND ( 'NONE', #193, .T. ) ;
#171 = LINE ( 'NONE', #145, #20 ) ;
#172 = PERSON_AND_ORGANIZATION_ROLE ( 'design_supplier' ) ;
#173 = ADVANCED_FACE ( 'NONE', ( #207, #158 ), #180, .F. ) ;
#174 = EDGE_CURVE ( 'NONE', #85, #315, #182, .T. ) ;
#175 = APPROVAL_DATE_TIME ( #199, #103 ) ;
#176 = DIRECTION ( 'NONE',  ( -1.000000000000000000, -0.000000000000000000, -0.000000000000000000 ) ) ;
#177 = CARTESIAN_POINT ( 'NONE',  ( -1.614212418857619014, 0.000000000000000000, 0.000000000000000000 ) ) ;
#178 = PERSON_AND_ORGANIZATION ( #169, #303 ) ;
#179 = DIRECTION ( 'NONE',  ( 0.000000000000000000, 0.000000000000000000, 1.000000000000000000 ) ) ;
#180 = PLANE ( 'NONE',  #48 ) ;
#181 = CARTESIAN_POINT ( 'NONE',  ( -3.000000000000000000, 0.000000000000000000, 12.69999999999999929 ) ) ;
#182 = CIRCLE ( 'NONE', #236, 12.69999999999999929 ) ;
#183 = AXIS2_PLACEMENT_3D ( 'NONE', #329, #287, #107 ) ;
#184 = DIRECTION ( 'NONE',  ( 0.000000000000000000, 0.000000000000000000, 1.000000000000000000 ) ) ;
#185 = VECTOR ( 'NONE', #314, 1000.000000000000000 ) ;
#186 = CC_DESIGN_PERSON_AND_ORGANIZATION_ASSIGNMENT ( #178, #147, ( #325 ) ) ;
#187 = ORIENTED_EDGE ( 'NONE', *, *, #156, .F. ) ;
#188 = DIRECTION ( 'NONE',  ( 0.000000000000000000, 0.000000000000000000, -1.000000000000000000 ) ) ;
#189 =( LENGTH_UNIT ( ) NAMED_UNIT ( * ) SI_UNIT ( .MILLI., .METRE. ) );
#190 = ORIENTED_EDGE ( 'NONE', *, *, #229, .F. ) ;
#191 = ADVANCED_FACE ( 'NONE', ( #261 ), #279, .F. ) ;
#192 = CARTESIAN_POINT ( 'NONE',  ( 0.000000000000000000, 0.000000000000000000, 0.000000000000000000 ) ) ;
#193 = EDGE_LOOP ( 'NONE', ( #218, #234, #312, #124 ) ) ;
#194 = PERSON_AND_ORGANIZATION ( #169, #303 ) ;
#195 = CIRCLE ( 'NONE', #35, 7.499999999999997335 ) ;
#196 = ORIENTED_EDGE ( 'NONE', *, *, #43, .F. ) ;
#197 = ORIENTED_EDGE ( 'NONE', *, *, #156, .T. ) ;
#198 = LOCAL_TIME ( 10, 42, 29.00000000000000000, #154 ) ;
#199 = DATE_AND_TIME ( #275, #198 ) ;
#200 = LINE ( 'NONE', #219, #14 ) ;
#201 = PERSON_AND_ORGANIZATION ( #169, #303 ) ;
#202 = EDGE_CURVE ( 'NONE', #243, #111, #139, .T. ) ;
#203 = CARTESIAN_POINT ( 'NONE',  ( -3.000000000000000000, 0.000000000000000000, 0.000000000000000000 ) ) ;
#204 = PERSON_AND_ORGANIZATION_ROLE ( 'design_owner' ) ;
#205 = CARTESIAN_POINT ( 'NONE',  ( -3.000000000000000000, 7.500000000000000000, 0.000000000000000000 ) ) ;
#206 = CARTESIAN_POINT ( 'NONE',  ( -1.614212418857619014, 0.000000000000000000, 0.000000000000000000 ) ) ;
#207 = FACE_OUTER_BOUND ( 'NONE', #221, .T. ) ;
#208 = DIRECTION ( 'NONE',  ( 0.000000000000000000, 0.000000000000000000, 1.000000000000000000 ) ) ;
#209 = DIRECTION ( 'NONE',  ( -1.000000000000000000, -0.000000000000000000, -0.000000000000000000 ) ) ;
#210 = CC_DESIGN_DATE_AND_TIME_ASSIGNMENT ( #149, #226, ( #265 ) ) ;
#211 = CIRCLE ( 'NONE', #334, 12.69999999999999929 ) ;
#212 = EDGE_CURVE ( 'NONE', #315, #85, #211, .T. ) ;
#213 = UNCERTAINTY_MEASURE_WITH_UNIT (LENGTH_MEASURE( 1.000000000000000082E-05 ), #189, 'distance_accuracy_value', 'NONE');
#214 = CARTESIAN_POINT ( 'NONE',  ( 3.000000000000000000, 0.000000000000000000, 12.69999999999999929 ) ) ;
#215 = EDGE_LOOP ( 'NONE', ( #276, #84 ) ) ;
#216 = CARTESIAN_POINT ( 'NONE',  ( -0.5000000000000004441, 0.000000000000000000, 0.000000000000000000 ) ) ;
#217 = CIRCLE ( 'NONE', #239, 12.69999999999999929 ) ;
#218 = ORIENTED_EDGE ( 'NONE', *, *, #33, .F. ) ;
#219 = CARTESIAN_POINT ( 'NONE',  ( -1.614212418857619014, 1.555301434917138433E-15, -12.69999999999999929 ) ) ;
#220 = CLOSED_SHELL ( 'NONE', ( #99, #191, #290, #331, #289, #288, #100, #242, #173, #87 ) ) ;
#221 = EDGE_LOOP ( 'NONE', ( #295, #63 ) ) ;
#222 = CALENDAR_DATE ( 2021, 5, 1 ) ;
#223 = VERTEX_POINT ( 'NONE', #151 ) ;
#224 = COORDINATED_UNIVERSAL_TIME_OFFSET ( 8, 0, .AHEAD. ) ;
#225 = CARTESIAN_POINT ( 'NONE',  ( 0.5000000000000008882, 9.184850993605147944E-16, -7.500000000000000000 ) ) ;
#226 = DATE_TIME_ROLE ( 'creation_date' ) ;
#227 = CYLINDRICAL_SURFACE ( 'NONE', #283, 12.69999999999999929 ) ;
#228 = DIRECTION ( 'NONE',  ( -1.000000000000000000, -0.000000000000000000, -0.000000000000000000 ) ) ;
#229 = EDGE_CURVE ( 'NONE', #111, #243, #44, .T. ) ;
#230 = AXIS2_PLACEMENT_3D ( 'NONE', #203, #72, #179 ) ;
#231 = LOCAL_TIME ( 10, 42, 29.00000000000000000, #71 ) ;
#232 = CARTESIAN_POINT ( 'NONE',  ( 3.000000000000000000, 12.69999999999999929, 0.000000000000000000 ) ) ;
#233 = APPROVAL ( #16, 'UNSPECIFIED' ) ;
#234 = ORIENTED_EDGE ( 'NONE', *, *, #330, .T. ) ;
#235 = CARTESIAN_POINT ( 'NONE',  ( -1.614212418857619014, 0.000000000000000000, 0.000000000000000000 ) ) ;
#236 = AXIS2_PLACEMENT_3D ( 'NONE', #19, #258, #1 ) ;
#237 = CARTESIAN_POINT ( 'NONE',  ( -1.614212418857619014, 0.000000000000000000, 0.000000000000000000 ) ) ;
#238 = LINE ( 'NONE', #6, #185 ) ;
#239 = AXIS2_PLACEMENT_3D ( 'NONE', #58, #296, #62 ) ;
#240 = ORIENTED_EDGE ( 'NONE', *, *, #294, .T. ) ;
#241 = CARTESIAN_POINT ( 'NONE',  ( -1.614212418857619014, 0.000000000000000000, 0.000000000000000000 ) ) ;
#242 = ADVANCED_FACE ( 'NONE', ( #136 ), #82, .T. ) ;
#243 = VERTEX_POINT ( 'NONE', #225 ) ;
#244 = DIRECTION ( 'NONE',  ( -1.000000000000000000, -0.000000000000000000, -0.000000000000000000 ) ) ;
#245 = CIRCLE ( 'NONE', #163, 7.499999999999997335 ) ;
#246 = VERTEX_POINT ( 'NONE', #98 ) ;
#247 = APPROVAL_STATUS ( 'not_yet_approved' ) ;
#248 = ORIENTED_EDGE ( 'NONE', *, *, #50, .T. ) ;
#249 = SHAPE_DEFINITION_REPRESENTATION ( #278, #291 ) ;
#250 = ORIENTED_EDGE ( 'NONE', *, *, #285, .F. ) ;
#251 = PERSON_AND_ORGANIZATION ( #169, #303 ) ;
#252 = DIRECTION ( 'NONE',  ( -1.000000000000000000, -0.000000000000000000, -0.000000000000000000 ) ) ;
#253 = COORDINATED_UNIVERSAL_TIME_OFFSET ( 8, 0, .AHEAD. ) ;
#254 = DIRECTION ( 'NONE',  ( 0.000000000000000000, 0.000000000000000000, 1.000000000000000000 ) ) ;
#255 = AXIS2_PLACEMENT_3D ( 'NONE', #45, #47, #41 ) ;
#256 = DIRECTION ( 'NONE',  ( 0.000000000000000000, 0.000000000000000000, 1.000000000000000000 ) ) ;
#257 = CIRCLE ( 'NONE', #114, 12.69999999999999929 ) ;
#258 = DIRECTION ( 'NONE',  ( -1.000000000000000000, -0.000000000000000000, -0.000000000000000000 ) ) ;
#259 = EDGE_LOOP ( 'NONE', ( #9, #61, #121, #27 ) ) ;
#260 = CIRCLE ( 'NONE', #49, 7.499999999999998224 ) ;
#261 = FACE_OUTER_BOUND ( 'NONE', #31, .T. ) ;
#262 = EDGE_CURVE ( 'NONE', #59, #223, #80, .T. ) ;
#263 = CC_DESIGN_PERSON_AND_ORGANIZATION_ASSIGNMENT ( #251, #73, ( #265 ) ) ;
#264 = ORIENTED_EDGE ( 'NONE', *, *, #50, .F. ) ;
#265 = PRODUCT_DEFINITION ( 'UNKNOWN', '', #325, #166 ) ;
#266 = CARTESIAN_POINT ( 'NONE',  ( -0.5000000000000004441, 9.184850993605145972E-16, -7.499999999999998224 ) ) ;
#267 = EDGE_CURVE ( 'NONE', #135, #59, #281, .T. ) ;
#268 = DIRECTION ( 'NONE',  ( 0.000000000000000000, 0.000000000000000000, 1.000000000000000000 ) ) ;
#269 = ORIENTED_EDGE ( 'NONE', *, *, #326, .T. ) ;
#270 = MECHANICAL_CONTEXT ( 'NONE', #128, 'mechanical' ) ;
#271 = VERTEX_POINT ( 'NONE', #140 ) ;
#272 = CARTESIAN_POINT ( 'NONE',  ( -1.614212418857619014, 0.000000000000000000, 12.69999999999999929 ) ) ;
#273 = DIRECTION ( 'NONE',  ( 0.000000000000000000, 0.000000000000000000, 1.000000000000000000 ) ) ;
#274 = LINE ( 'NONE', #272, #52 ) ;
#275 = CALENDAR_DATE ( 2021, 5, 1 ) ;
#276 = ORIENTED_EDGE ( 'NONE', *, *, #294, .F. ) ;
#277 = SECURITY_CLASSIFICATION_LEVEL ( 'unclassified' ) ;
#278 = PRODUCT_DEFINITION_SHAPE ( 'NONE', 'NONE',  #265 ) ;
#279 = CYLINDRICAL_SURFACE ( 'NONE', #313, 7.499999999999998224 ) ;
#280 = PERSON_AND_ORGANIZATION_ROLE ( 'classification_officer' ) ;
#281 = LINE ( 'NONE', #130, #110 ) ;
#282 = DIRECTION ( 'NONE',  ( 0.000000000000000000, 0.000000000000000000, -1.000000000000000000 ) ) ;
#283 = AXIS2_PLACEMENT_3D ( 'NONE', #235, #21, #304 ) ;
#284 = AXIS2_PLACEMENT_3D ( 'NONE', #216, #109, #60 ) ;
#285 = EDGE_CURVE ( 'NONE', #168, #243, #238, .T. ) ;
#286 = DIRECTION ( 'NONE',  ( -1.000000000000000000, 0.000000000000000000, -0.000000000000000000 ) ) ;
#287 = DIRECTION ( 'NONE',  ( -1.000000000000000000, -0.000000000000000000, -0.000000000000000000 ) ) ;
#288 = ADVANCED_FACE ( 'NONE', ( #170 ), #113, .F. ) ;
#289 = ADVANCED_FACE ( 'NONE', ( #116 ), #8, .F. ) ;
#290 = ADVANCED_FACE ( 'NONE', ( #36 ), #3, .F. ) ;
#291 = ADVANCED_BREP_SHAPE_REPRESENTATION ( 'QM-AAQWP-15-550-750-M', ( #56, #117 ), #55 ) ;
#292 = PRODUCT_RELATED_PRODUCT_CATEGORY ( 'detail', '', ( #29 ) ) ;
#293 = DIRECTION ( 'NONE',  ( 1.000000000000000000, 0.000000000000000000, 0.000000000000000000 ) ) ;
#294 = EDGE_CURVE ( 'NONE', #135, #320, #260, .T. ) ;
#295 = ORIENTED_EDGE ( 'NONE', *, *, #212, .F. ) ;
#296 = DIRECTION ( 'NONE',  ( -1.000000000000000000, -0.000000000000000000, -0.000000000000000000 ) ) ;
#297 = ORIENTED_EDGE ( 'NONE', *, *, #174, .T. ) ;
#298 = DIRECTION ( 'NONE',  ( -1.000000000000000000, -0.000000000000000000, -0.000000000000000000 ) ) ;
#299 = COORDINATED_UNIVERSAL_TIME_OFFSET ( 8, 0, .AHEAD. ) ;
#300 = ORIENTED_EDGE ( 'NONE', *, *, #22, .T. ) ;
#301 = PERSON_AND_ORGANIZATION ( #169, #303 ) ;
#302 = CARTESIAN_POINT ( 'NONE',  ( 3.000000000000000000, 0.000000000000000000, 0.000000000000000000 ) ) ;
#303 = ORGANIZATION ( 'UNSPECIFIED', 'UNSPECIFIED', '' ) ;
#304 = DIRECTION ( 'NONE',  ( 0.000000000000000000, 0.000000000000000000, 1.000000000000000000 ) ) ;
#305 = CC_DESIGN_APPROVAL ( #103, ( #104 ) ) ;
#306 = DIRECTION ( 'NONE',  ( -1.000000000000000000, -0.000000000000000000, -0.000000000000000000 ) ) ;
#307 = EDGE_CURVE ( 'NONE', #90, #271, #217, .T. ) ;
#308 = AXIS2_PLACEMENT_3D ( 'NONE', #138, #144, #160 ) ;
#309 = LOCAL_TIME ( 10, 42, 29.00000000000000000, #224 ) ;
#310 = DIRECTION ( 'NONE',  ( -0.000000000000000000, 0.000000000000000000, 1.000000000000000000 ) ) ;
#311 =( NAMED_UNIT ( * ) SI_UNIT ( $, .STERADIAN. ) SOLID_ANGLE_UNIT ( ) );
#312 = ORIENTED_EDGE ( 'NONE', *, *, #267, .T. ) ;
#313 = AXIS2_PLACEMENT_3D ( 'NONE', #206, #153, #51 ) ;
#314 = DIRECTION ( 'NONE',  ( -1.000000000000000000, -0.000000000000000000, -0.000000000000000000 ) ) ;
#315 = VERTEX_POINT ( 'NONE', #214 ) ;
#316 = APPLICATION_PROTOCOL_DEFINITION ( 'international standard', 'config_control_design', 1994, #128 ) ;
#317 = DIRECTION ( 'NONE',  ( -1.000000000000000000, -0.000000000000000000, -0.000000000000000000 ) ) ;
#318 = ORIENTED_EDGE ( 'NONE', *, *, #13, .T. ) ;
#319 = DIRECTION ( 'NONE',  ( -1.000000000000000000, 0.000000000000000000, -0.000000000000000000 ) ) ;
#320 = VERTEX_POINT ( 'NONE', #266 ) ;
#321 = APPROVAL_ROLE ( '' ) ;
#322 = DIRECTION ( 'NONE',  ( 0.000000000000000000, 0.000000000000000000, 1.000000000000000000 ) ) ;
#323 = EDGE_LOOP ( 'NONE', ( #196, #297, #300, #264 ) ) ;
#324 = DATE_AND_TIME ( #222, #231 ) ;
#325 = PRODUCT_DEFINITION_FORMATION_WITH_SPECIFIED_SOURCE ( 'ANY', '', #29, .NOT_KNOWN. ) ;
#326 = EDGE_CURVE ( 'NONE', #168, #246, #245, .T. ) ;
#327 = ORIENTED_EDGE ( 'NONE', *, *, #307, .F. ) ;
#328 = CALENDAR_DATE ( 2021, 5, 1 ) ;
#329 = CARTESIAN_POINT ( 'NONE',  ( -3.000000000000000000, 0.000000000000000000, 0.000000000000000000 ) ) ;
#330 = EDGE_CURVE ( 'NONE', #320, #135, #94, .T. ) ;
#331 = ADVANCED_FACE ( 'NONE', ( #167 ), #161, .F. ) ;
#332 = AXIS2_PLACEMENT_3D ( 'NONE', #205, #155, #282 ) ;
#333 = PLANE ( 'NONE',  #332 ) ;
#334 = AXIS2_PLACEMENT_3D ( 'NONE', #102, #54, #184 ) ;
#335 = CARTESIAN_POINT ( 'NONE',  ( 0.5000000000000008882, 0.000000000000000000, 0.000000000000000000 ) ) ;
ENDSEC;
END-ISO-10303-21;
